Browse Artists by Letter:    (use first letter of the artist's last name)
A B C D E F G H I J K L M N O P Q R S T U V W X Y Z 0 1 2 3 4 5 6 7 8 9
You need the BEST Dedicated or Virtual SERVER for LESS money? Dedicated Servers
COOKING IS EASY - Find Recipes Have Spam / Bandwidth Issues? Hire an Expert

ArtistSongTypeLyrics
TriumphLay It On the Line v1Guitar TabLyrics
Triumph 
Lay it on the Line


Intro Through the 1st Verse
----8---------8---------8--------8----
---8-8-8-----8-8-8-----7-7-7----7-7-7-
--5---5-5---5---5-5---5---5----5---5--
-7---------7---------7--------7-------
0---------0---------0--------0--------
--------------------------------------

Intro Solo
|------------------------------------|---------------------5h-7s-8s-10-10s-12-|
|------------------------------------|----------------5h-8--------------------|
|------------------------------------|-----------5h-7-------------------------|
|-7h-9-----7----7--------------------|------5h-7------------------------------|
|------------10-----10-9-10--9----7b-|-5h-7-----------------------------------|
|------------------------------10----|----------------------------------------|

1st Verse:
It's the same old story all over again
You turn a lover into just another friend
Am        G         F         D
I want to love you, I want to make you mine
          F       G     Am
Won't you lay it on the line?


2nd verse:
Am                            F
I'm tired of playing all your foolish games
Am                            F
I'm tired of all of your lies making me insane
Am      G               F             D
I don't ask for much, the truth will do just fine
           F       G          Am
Won't you, lay it on the line

Chorus:
F      G      Am   G
lay it on the line
F      G      Am   G
lay it on the line
F      G      F
lay it on the line
                   Am F Am F
Don't waste my time

Solo:
|-----------------------|-----------------------|-12h15h17p12h15--------------|
|-----------------------|-8-7-5-----------------|-----------------------------|
|--------------5b^5b---|-------8-7-5--7-8-5----|-----------------------------|
|-5(tr)7---7b-----------|-----------------------|-----------------------------|
|-----------------------|-----------------------|-----------------------------|
|-----------------------|-----------------------|-----------------------------|

Chorus:
F      G      Am   G
lay it on the line
F      G      Am   G
lay it on the line
F      G      F
lay it on the line
                   Am F Am F
Don't waste my time

Solo:
|------------------|---------------|--------------|---------------------------|
|------------------|---------------|--------------|----------18--17-18-17-----|
|-(3)s^5s^7s--10---|-10s^12s^14----|-14s-16s-17---|-19--21--------------------|
|------------------|---------------|--------------|---------------------------|
|------------------|---------------|--------------|---------------------------|
|------------------|---------------|--------------|---------------------------|

|--------------|------------------------------------------|-------------------|
|--------------|-----------------------------------20br20-|-18--17-18-17------|
|-19-17--------|-------17---19b19b19b--17-----------------|-------------------|
|---------17---|-19-21---------------------21-19----------|-------------------|
|--------------|------------------------------------------|-------------------|
|--------------|------------------------------------------|-------------------|

|-----------------------------------------------------------------------------|
|-----------------------------------------------------------------------------|
|---------------------------------------------------------------17--16-17-16--|
|-17--15--14------14-15-14--------------------------------14^17---------------|
|-------------17------------17--15--15------------15--17----------------------|
|---------------------------------------17-15-17------------------------------|

|-----------------17------------------------------------------20--------------|
|-------18--18-20-----20------20-----20----------------17-19------------------|
|-14----------------------19b----19b----19b-17--17--19------------------------|
|----17-----------------------------------------------------------------------|
|-----------------------------------------------------------------------------|
|-----------------------------------------------------------------------------|

|-----------------------------------------|-----------------------------------|
|-17--17-18-17----------------------------|-----------------------------------|
|---------------19--17--17-19-17----------|----16-17-19--17-16----------------|
|--------------------------------19-17-19-|-19-----------------19-17-14-12-10-|
|-----------------------------------------|-----------------------------------|
|-----------------------------------------|-----------------------------------|

|--------------------------|--------------------------------------------------|
|--------------------------|--------------------------------------------------|
|--------------------------|-----------------------------19-17-19--17----17---|
|-9--------------------12b-|----------15----15--17-15-17--------------19------|
|---12-10----------10------|-------------17-----------------------------------|
|---------12-10-12---------|-17-15-17-----------------------------------------|


|-----------------------------------------------------------------------------|
|-----------17----17--20-17-17-17-17---20-17-17-17-17---20-17-17-17-17--------|
|-19-17-19-----19-------------------------------------------------------------|
|-----------------------------------------------------------------------------|
|-----------------------------------------------------------------------------|
|-----------------------------------------------------------------------------|


|-20b-17----------------------------------------------------------------------|
|---------20b-20b-------------------------------------------------------------|
|-----------------------------------------------------------------------------|
|-----------------------------------------------------------------------------|
|-----------------------------------------------------------------------------|
|-----------------------------------------------------------------------------|

Bridge:
Am		     F             G
You know I love you, you know it's true
Am                   F             G
It's up to you, girl, what've I got to do
Am    G                  F              D
Don't hold me up, girl, don't waste my precious time
           F       G          Am
Won't you lay it on the line

Chorus:
F      G      Am   G
lay it on the line
F      G      Am   G
lay it on the line
F      G      Am
lay it on the line
F      G      Am   G
lay it on the line
F      G      Am
lay it on the line
F      G      Am   G
lay it on the line
F      G      Am
lay it on the line
F      G      Am   G
lay it on the line
F      G      Am
lay it on the line
F      G      Am   G
lay it on the line
F      G      Am
lay it on the line
F      G      Am   G
lay it on the line




Yost with the Most





Search Tabs:
    Artist:
    Song:
   Only show exact matches.
 


Action: 'View File'
Ident: '9975061'