Browse Artists by Letter:    (use first letter of the artist's last name)
A B C D E F G H I J K L M N O P Q R S T U V W X Y Z 0 1 2 3 4 5 6 7 8 9
You need the BEST Dedicated or Virtual SERVER for LESS money? Dedicated Servers
COOKING IS EASY - Find Recipes Have Spam / Bandwidth Issues? Hire an Expert

ArtistSongTypeLyrics
Red Hot Chili PeppersDont Forget Me Live At Slane v1Guitar TabLyrics
Artist: Red Hot Chili Peppers
Song: Don't Forget Me(Live)
Venue: Slane Castle. Ireland.

Intro:
(Bass arranged for Guitar)- 
(Remains constanta for the whole song)
e----------------------------------------
B----------------------------------------
G----------------------------------------
D-7-x-x-x--3-x-x-x--10-x-x-x--5-x-x-x----
A-7-x-x-x--3-x-x-x--10-x-x-x--5-x-x-x----
E-5-x-x-x--1-x-x-x--8--x-x-x--3-x-x-x----

Guitar
Fig 1
(Slight Dist with Delay)
e-----0--------------- P.M the whole way thru 
B-------------------- and play as quick
G-------------------- and continuous as possible
D--------------------
A--------------------
E--------------------


Fig 2
Interlude
(Delay) w finger tapping
e----5h7p5h7p5h7p5h7----
B-----------------------
G-----------------------
D-----------------------
A-----------------------
E-----------------------
For this place index finger on 5th fret 
of e string 
and constantly hammer 
the 7th fret and pull off to the 5th fret.
then the second part-

e-8p5p0---(Continuously)------
B-----------------------------
G-----------------------------
D-----------------------------
A-----------------------------
E-----------------------------
For this palce thumb at eight fret of e string 
and use it to "pull off" the string to the 5th fret 
before releasing the 5th fret 
too an open string and repeat.

Fig 3
Repeat fig 1

Fig 4
is a repetition of the interlude (Fig 2)


Fig 5
Chorus
e---5-----5-----------/17--- These notes are strummed together 
B---5-----5-----------/17--- as fast as possible togeter continuously and
G--------------------------- the slide takes you into the solo.
D---------------------------
A---------------------------
E---------------------------


Fig 6
Solo 1

e----------------------------
B----------------------------
G--9---12----14-----17^------
D--=---=-----=---------------
A----------------------------
E----------------------------


e--------------------------------------------------------------------
B--------------------------------------------------------------------
G---9---12---14----17/16/17----19^19--17-----16h1716h1716h17---14----
D---=---=----==----========------------------------------------------
A--------------------------------------------------------------------
E--------------------------------------------------------------------

Thge equals sign under the various notes above represents 
them to be tremelo picked or jst played very quickly 
(ie as many timers as possible)
and the ^sign represents a bend.
This sign (/) represents a slide.
The solo i think is played with a wah pedal 
but thats about as much as i know- i dont own one (Yet.) 
so i have a limited experiment basis 
hence this tab for the solo may suck- for that i apologise.

Fig 7
Repeat Fig 1 again.

Fig 8
Repeat Fig 2

fig 9
This is a repetition of Fig 5 except its elongated.
This is a prelude to another solo/Interlude- this one slightly easier to play.

Fig 10
Solo 2

e--5--3--0--------5--3--0--0----5--3--0 This is repeated seven times inclusive 
B-------------------------------------- before changing (it may vary slightly
G-------------------------------------- from above)
D--------------------------------------
A--------------------------------------
E--------------------------------------

" "
e--7^~7--/5~5/--12~~~~--15p12-12-(" "Repeat approx 7 times)----
B--------------------------------------------------------------
G--------------------------------------------------------------
D--------------------------------------------------------------
A--------------------------------------------------------------
E--------------------------------------------------------------

e--15/17^~~--15p12h15p12h15p12h15p12-----12^/15/9--------
B--------------------------------------------------------
G--------------------------------------------------------
D--------------------------------------------------------
A--------------------------------------------------------
E--------------------------------------------------------

e---7/9/7/9/7/9/7/9~~~/--------5---
B----------------------------------
G----------------------------------
D----------------------------------
A----------------------------------
E----------------------------------

Again im unsure of whatr effect is used and 
i know that its not 100% correct but mess around with the notes 
and it wont sound too bad.

Fig 11
Repeat Fig 1

Fig 12
Outro

e-8--5--0-----8--5--0----8--5--0--
B---------------------------------
G---------------------------------
D---------------------------------
A---------------------------------
E---------------------------------

e-12--8--0----12--8--0/12~/----12--8--0----
B------------------------------------------
G------------------------------------------
D------------------------------------------
A------------------------------------------
E------------------------------------------

e-12--8--0-----12--8--8-----12-----8--5--0---8--5--0--8---
B---------------------------------------------------------
G---------------------------------------------------------
D---------------------------------------------------------
A---------------------------------------------------------
E---------------------------------------------------------

e-15--12--0----15--12------15p12h15p12h15p12~~~~~~--------
B---------------------------------------------------------
G---------------------------------------------------------
D---------------------------------------------------------
A---------------------------------------------------------
E---------------------------------------------------------

e-----12p8p0h12p8p0h12p8p0h12~~~~~~~~/12/15/17^^^^--
B---------------------------------------------------
G---------------------------------------------------
D---------------------------------------------------
A---------------------------------------------------
E---------------------------------------------------

And thats all that ive got for the outro- after that slide and bend on 17 
he kinda goes off on a tangent and jumps strings and 
frets and in some scale i cant get my head round.
I jope this was helpful; in some ways and if there are any
problems comments etc mail me at
davidsetanta@hotmail.com
and i will replay asap.
Take it Easy.
Dave.





Search Tabs:
    Artist:
    Song:
   Only show exact matches.
 


Action: 'View File'
Ident: '5838315'